CANCIONERO CATOLICO

Busca en nuestros Sitios Catolicos

YO CREO EN LAS PROMESAS DE DIOS (BAJO)

De: DANIEL POLI


YO CREO EN LAS PROMESAS


A|5---5---5--5---5-5---5--5-------|
E|--------------------------5-5--5|
 Yo creo en las promesas de Dios.

A|-------------------------------|
E|----3-3--3--3-3-------3---5--5-|
 Yo creo en las promesas de Dios 

A|-----------------------------5--5-|
E|----7--7--7--7--7-3----3-3--3-----|  
 Yo creo en las promesas de mi Señor


A|--------------------------------------5-5--|
E|--------2--2--2---5----5---3---3---3-------|       
 Si soy fiel en lo poco, El me confiará más.

A|------------------7--7--7--7------------|
E|--------2--2---2-------------3-3---5-5--|     
 Si soy fiel en lo poco, mis pasos guiará.


Escriba un Comentario
Escriba su Nombre (Opcional) :

Sitio Web (Opcional) :

Email (Requerido) :

Su Comentario (Requerido):

Comentarios :



 
Compartir esta Pagina