CANCIONERO CATOLICO

Busca en nuestros Sitios Catolicos

VEN SEnOR JESUS (TAB)

De: HERMANA GLENDA


VEN SEÑOR JESÚS
(Ap  22,20)
 

e|--------0------------0-------3------3--------------3-------------0------------0-----|
B|-1----1---1--------1---1-----3----3---3----------3---3----2----2---2--------2---2---|
G|----0-------0----0-------0------0-------0------0-------0-----2-------2----2-------2-|
D|------------------------------------------------------------------------------------|
A|-3-------------3---------------------------2--------------0-------------0-----------|
E|-----------------------------3---------------3--------------------------------------|

e|-3------3------------1-------1---------3------3------------3---------|
B|-3----3---3----1---1---1---3---3-------3----3---3--------3---3----1--|
G|----0-------0----2-------2-------2--------0-------0----0-------0-----|
D|-----------------------------------0---------------------------------|
A|-3---------------------------------------------------3------------3--|
E|---------------1-----------------------3-----------------------------|


Do                        Sol              La     Sol         Fa              Re-
Ven Señor Jesús, porque sin Ti ya no hay paisaje, ven Señor Jesús, porque sin Ti no
        Sol               Do            Sol        La-                     Fa
Hay melodías. Ven señor Jesús, porque sin Ti no encuentro paz en nada, sin Ti mis
Re-       Sol                     Do      Sol     La-   Sol     Fa      Re-         Sol
Ojos no brillan. La vida es poca cosa, sin Ti, sin Ti, sin Ti, sin Ti, la vida es poca cosa      

              
             Do  Sol              La-  Sol          Fa   Re-    Sol            Do
Ven Señor Jesús, ven pronto a mi vida, ven pronto Señor, ven pronto. Porque sin Ti
          Sol     La-        Sol       Fa                      Sol     
Yo no quiero la vida, ya no canto con alma, ya mis manos no sirven, ya no escucho
 Do             Sol         La-         Sol           Fa                       Sol
Latidos, ya no abrazo con fuerza, mi corazón no se ensancha, mi sonrisa no es plena
        Do        Sol     La-           Fa         Re-       Sol             Do
Todo sin Ti nada vale la pena, porque sin Ti ya no me llena nada, porque sin Ti todo



Mi       La-      Fa   Re-            Sol              Do      Sol       La-    Sol
Suena a vacío, sin Ti todo me deja tristeza, porque sin Ti yo no respiro hondo, porque
   Fa   Re-     Sol             Do     Mi    La-      Sol    Fa    Re-   Fa      Sol
Sin Ti todo me cansa, porque sin Ti me falta todo y me sobra todo, todo sin Ti, sin Ti
            Do     Sol            La-   Sol         Fa   Re     Sol           Do
Ven Señor Jesús, ven pronto a mi vida, ven pronto Señor, ven pronto, porque sin Ti
      Sol        La-           Sol            Fa             Sol         
No me importa mi hermano, no me importa el que sufre, porque sin Ti, mi corazón es



e|--------0------------0-------3------3--------------3-------------0------------0-----|
B|-1----1---1--------1---1-----3----3---3----------3---3----2----2---2--------2---2---|
G|----0-------0----0-------0------0-------0------0-------0-----2-------2----2-------2-|
D|------------------------------------------------------------------------------------|
A|-3-------------3---------------------------2--------------0-------------0-----------|
E|-----------------------------3---------------3--------------------------------------|

e|-3------3------------1-------1---------3------3------------3---------|
B|-3----3---3----1---1---1---3---3-------3----3---3--------3---3----1--|
G|----0-------0----2-------2-------2--------0-------0----0-------0-----|
D|-----------------------------------0---------------------------------|
A|-3---------------------------------------------------3------------3--|
E|---------------1-----------------------3-----------------------------|


     Do               Sol   La-     Sol          Fa            Re-      Sol
de piedra, a quien todo resbala, acostumbrado a los pobres, acomodado en su casa,
                Do         Mi       La     Fa    Re-        Sol               Do   Sol
Sin jugarse la vida, sin gastarlo por nada, sin gastarlo por nada. Ven Señor Jesús, ven
             La-  Sol          Fa  Re-     Sol
pronto a mi vida, ven pronto Señor, ven pronto    
                                                            
 



Escriba un Comentario
Escriba su Nombre (Opcional) :

Sitio Web (Opcional) :

Email (Requerido) :

Su Comentario (Requerido):

Comentarios :



 
Compartir esta Pagina