CANCIONERO CATOLICO

Busca en nuestros Sitios Catolicos

TU TIENES PALABRAS DE VIDA (TAB)

De: HERMANA GLENDA


TU  TIENES  PALABRAS  DE  VIDA
(Jn  6,  68)

e|-------0---------------0------2-------2-3-2----------2-------2--2-0-------|
B|-2---2---2-----------0------3---3---3-------3------3-------3--------2-----|
G|---2-------2--1-----------2-------2--------------2-------2------------2---|
D|----------------2-----------------------------------------------2-2-----2-|
A|-0----------------2---------------------------0--------0------------------|
E|--------------------------------------------------------------------------|

e|-------0---------------0------2-------2-3-2----------2-------2--2-0-------|
B|-2---2---2-----------0------3---3---3-------3------3-------3--------2-----|
G|---2-------2--1-----------2-------2--------------2-------2------------2---|
D|----------------2-----------------------------------------------2-2-----2-|
A|-0----------------2---------------------------0--------0------------------|
E|--------------------------------------------------------------------------|


    
La         Mi    Re           La            Mi        Re         Mi            Fa#-     Do#-
Señor Tú, tienes palabras de vida, Señor Tu tienes, palabras de amor y dime a quién  iré, a
Re       La             Fa#-   Do#-  Re/Mi      Fa#-  Do#-    Re      La             Fa#- Do#-  
Quién buscaré y dime a dónde iré sin ti, dime a quién iré, a quién buscaré y dime a dónde iré
Re    Mi       Do#         Fa#-         Re     La     Re   La            Re   La    Mi   Do#-
Si tu tienes palabras de vida y dime a dónde iré o a quién iré y dime a dónde iré sin ti, tu


                    Fa#-          Re    La       Re   Mi    La   Fa#-         Do#-
Tienes palabras de vida y dime a dónde iré, o a quién buscaré, y dime a dónde iré.
  Re         La           Fa#-     Do#-      Re  Mi     Do#-      Fa#-         Re  Mi     La
A dónde escaparé y dime a quién buscaré, si tu tienes palabras de vida y dime qué haré sin ti
Fa#-Do#-Re  La  Fa#- Do#- Re  Mi   La         Mi     Re        La                     Mi   Re
Uh  uh  uh  uh  uh   uh  uh  uh  Señor Tú tienes palabras de vida, Señor Tú  tienes palabras de


Mi            Fa#-   Do#-   Re     La               Fa#- Do#-    Re/Mi    Fa#-    Do#-     Re
Amor y dime a quién iré, a quién buscaré y dime a dónde iré sin ti,    dime a quién iré a quién
   La             Fa#-   Do#- Re    Mi     Do#       Fa#           Re      Mi      Re    Mi
Buscaré y dime a dónde iré si Tú tienes palabras de vida y dime a dónde iré, a dónde iré sin
La    Fa#-  Do#- Re  La
Ti,   uh    uh   uh  uh


 



Escriba un Comentario
Escriba su Nombre (Opcional) :

Sitio Web (Opcional) :

Email (Requerido) :

Su Comentario (Requerido):

Comentarios :



 
Compartir esta Pagina