CANCIONERO CATOLICO

Busca en nuestros Sitios Catolicos

QUIEN HA ENCONTRADO UN AMIGO (TAB)

De: HERMANA GLENDA


QUIEN HA ENCONTRADO UN AMIGO
(Eclo 6,  14)

e|-------0------3-----3------1--3--0--3---------3--------1----------1--|
B|-1---1---1--------3---3----1--3--1----------3---3------1--------1----|
G|---0-------0----0-------0--2--0--0--------0-------0----2------2------|
D|---------------------------2--0--2------0-----------0--2----2--------|
A|-3-------------------------3--0--3----2----------------3--3----------|
E|--------------3------------1--3--3--3------------------1-------------|


e|-------0------3-----3------1--3--0--3---------3--------1----------1--|
B|-1---1---1--------3---3----1--3--1----------3---3------1--------1----|
G|---0-------0----0-------0--2--0--0--------0-------0----2------2------|
D|---------------------------2--0--2------0-----------0--2----2--------|
A|-3-------------------------3--0--3----2----------------3--3----------|
E|--------------3------------1--3--3--3------------------1-------------|


  Do                       Sol                   Fa/Sol/Do  Sol               Fa
Quien ha encontrado un amigo ha encontrado un tesoro, y  yo te he encontrado a Ti.
  Do                    Sol                   Fa/Sol/Do           Sol        Fa
Quién ha encontrado un amigo ha encontrado un tesoro, tú me has encontrado a mí.
  La       Sol                 Fa       La-      Sol    Fa/Sol
Y por un tesoro encontrado en un campo se vende todo para comprarlo.
  Do                    Sol                     Fa   Sol         Do
Quien ha encontrado un amigo ha encontrado un tesoro uo,  ie,  e,  e...
 

 Do                     Sol                    La-   Fa   Sol     Do/Sol/Fa/Sol
Quien ha encontrado un amigo ha encontrado un tesoro uo,  ie, e,  e...
  La-      Sol                    Fa       La-    Sol         Fa
Y por un tesoro encontrado en un campo se vende todo para comprarlo,
  La-             Sol             Fa
Yo contigo aprendí a vender mis egoísmos,
  La-             Sol                 Fa          Sol      Do
Yo contigo aprendí a no pensar en mi mismo,  uo,  ie,  e,  e,



e|-------0------3-----3------1--3--0--3---------3--------1----------1--|
B|-1---1---1--------3---3----1--3--1----------3---3------1--------1----|
G|---0-------0----0-------0--2--0--0--------0-------0----2------2------|
D|---------------------------2--0--2------0-----------0--2----2--------|
A|-3-------------------------3--0--3----2----------------3--3----------|
E|--------------3------------1--3--3--3------------------1-------------|


  Do                    Sol                     Fa    Sol        Do
Quien ha encontrado un amigo ha encontrado un tesoro, ou,  i,  e,  e,
  Do                     Sol                     La     Fa/Sol/Do
Quién ha encontrado un amigo ha encontrado un tesoro, ou,  i,  e,  e,
  Do                    Sol                     Fa         Sol              Do
Quien ha encontrado un amigo ha encontrado un tesoro, yo te he encontrado a Ti


                        Sol                    La-        Fa         Sol
Quien ha encontrado un amigo ha encontrado un tesoro, tú me has encontrado a mí,
  La-             Sol            Fa     La-         Sol             Fa    Sol       Do
Yo por ti encontré a Dios en mi vida,  tú eres el mayor signo de su amor, uo,  i,  e,  e.
  Do                    Sol                   Fa/Sol
Quién ha encontrado un amigo ha encontrado un tesoro,
                    Do     Fa      Sol      Do
Encontré a Dios por ti encontré a Jesús por Ti
 



Escriba un Comentario
Escriba su Nombre (Opcional) :

Sitio Web (Opcional) :

Email (Requerido) :

Su Comentario (Requerido):

Comentarios :



 
Compartir esta Pagina