CANCIONERO CATOLICO

Busca en nuestros Sitios Catolicos

PIDE Y SE TE DARA (TAB)

De: HERMANA GLENDA


PIDE Y SE TE DARA
( Mt  7, 7)

e|--3------3-------2-------2-------2-------------0-------------0----------2-|
B|-------3---3-----------3---3---3---3----1----1---1----3----1---1------3---|
G|-----0-------0-------2-------2-------2-----0-------0-----0-------0--2-----|
D|--------------------------------------------------------------------------|
A|-----------------0----------------------3-------------3-------------------|
E|--3-----------------------------------------------------------------------|

e|--3------3-------2-------2-------2-------------0-------------0----------2-|
B|-------3---3-----------3---3---3---3----1----1---1----3----1---1------3---|
G|-----0-------0-------2-------2-------2-----0-------0-----0-------0--2-----|
D|--------------------------------------------------------------------------|
A|-----------------0----------------------3-------------3-------------------|
E|--3-----------------------------------------------------------------------|

 Sol            Re     Do          Re
Pide  y  se  te dará  busca  y  encontrará
 Sol           Re           Do
Llama  y  se  te  abrirá  porque  todo  aquel  que  pide,
                            Re     Do
Porque  todo  aquel  que  busca, porque  todo aquel  que llama...


          Sol    Re  Do Re      Sol  Re  Do
Se  le  abrirá   a   a   encontrará , a   a
  Re  Sol   Re Do     Re      Sol    Re       Do
Recibirá,  recibirá,  encontrará  uh, encontrará



e|--3------3-------2-------2-------2-------------0-------------0----------2-|
B|-------3---3-----------3---3---3---3----1----1---1----3----1---1------3---|
G|-----0-------0-------2-------2-------2-----0-------0-----0-------0--2-----|
D|--------------------------------------------------------------------------|
A|-----------------0----------------------3-------------3-------------------|
E|--3-----------------------------------------------------------------------|


  Do                                                      Re
Porque  todo  aquel  que  pide , porque  todo  aquel  que busca
         Do
porque  todo  aquel  que  llama
           Sol   Re      Do   Re   Sol        Re  Do
Se  le  abrirá,  encontrará,  recibirá  si,  recibirá
 

          Sol     Re  Do  Re     Sol  Re          Do
Se  le  abrirá    a    a, encontrará, uh, encontrará
Re    Sol    Re   Do       Sol   Re    Do  Re       Sol     Re   Do   Re  Sol
Recibirá,    recibirá,    Pide    e    e,          Pide     e    e    e    e


 



Escriba un Comentario
Escriba su Nombre (Opcional) :

Sitio Web (Opcional) :

Email (Requerido) :

Su Comentario (Requerido):

Comentarios :



 
Compartir esta Pagina