CANCIONERO CATOLICO

Busca en nuestros Sitios Catolicos

EL AUXILIO ME VIENE DEL SEnOR (SALMO 120) (TAB)

De: HERMANA GLENDA


Dios esta cerca de ti,
más cerca de ti que tu mismo,
levanta tu mirada y lo encontraras.


1|-0-----2-----3|-3-----2-----2-0--|
2|---0-----0----|---0-----0-------0|
3|-----0-----0--|-----0-----0------|
4|--------------|------------------|
5|--------------|------------------|
6|-0------------|-0----------------|


1|-0-----2-----3|-3-----2-----2-0--|
2|---0-----0----|---0-----0-------0|
3|-----0-----0--|-----0-----0------|
4|--------------|------------------|
5|--------------|------------------|
6|-0------------|-0----------------|

V: MI  FA#  SOL  SOL   FA#  FA# MI  SI4 MI

 Em          Am         Em  (1)
Levanto mis ojos a los montes
                 Am      Em (2)
¿De dónde me vendrá el auxilio?
     Am
El auxilio me viene de ti
      Em                   B7
Que hiciste el cielo y la tierra.

           G                 D     B7
NO PERMITIRÁ QUE RESBALE MI PIE
                Em                     B7
MI GUARDIÁN NO DUERME, MI GUARDIÁN NO DUERME (2)
*   Am                      Em
NO DUERME NI REPOSA EL GUARDIÁN DE ISRAEL
    Am                      B7  * Em
NO DUERME NI REPOSA MI GUARDIÁN.

Em         Am        Em (1)
El Señor está a mi derecha,
            Am            Em (2)
El Señor me libra de todo mal.
   Am
De día el sol no me hará daño,
      Em
Ni la luna de noche,
   Am                          B7
De día el sol no me hará daño por que Él.



           G                 D    B7
NO PERMITIRÁ QUE RESBALE MI PIE
                Em                     B7
MI GUARDIÁN NO DUERME, MI GUARDIÁN NO DUERME (2)
   Am                       Em
NO DUERME NI REPOSA EL GUARDIÁN DE ISRAEL
   Am                       B7
NO DUERME NI REPOSA MI GUARDIÁN.
   Am                       Em
NO DUERME NI REPOSA EL GUARDIÁN DE ISRAEL
   Am                       B7
NO DUERME NI REPOSA MI GUARDIÁN.

1|---------0--|            1|---------0|
2|-----0------|            2|-------0--|
3|---0---0---0|            3|-----0----|
4|------------|            4|---1------|
5|------------|            5|----------|
6|-0----------|            6|-0--------|

F: FA# SOL  MI,   FA# SOL#
V: VIOLIN
F: FLAUTA

Esto lo hace el violín, también
tiene otra melodía que luego espero escribirla.
(1)MI FA# SOL.
(2)SOL FA# MI RE MI.
Este signo * significa que se hace
un arpegio de Bajo, tercero, segundo,
tercera, primera, tercera, segunda,
tercera hasta donde se encuentra el
otro signo igual a este.

 



Escriba un Comentario
Escriba su Nombre (Opcional) :

Sitio Web (Opcional) :

Email (Requerido) :

Su Comentario (Requerido):

Comentarios :



 
Compartir esta Pagina