CANCIONERO CATOLICO

Busca en nuestros Sitios Catolicos

CRISTO VIVE EN MI (TAB)

De: HERMANA GLENDA


G#  A#  Cm        G#  A#  Cm
|-----------------|-----------------|
|-4-4-3-3---4-3-4-|-4-4-6-6---4-3-4-|
|-5-5-3-3---5-5-5-|-5-5-3-3---5-5-5-|
|-----------------|-----------------|
|---------3-------|---------3-------|
|-4---6-----------|-4---6-----------|
  Fm      Cm        G#  A#  Cm
|---4-3-4---------|-----------------|
|---6-6-6---3-4-3-|-4-4-6-6---4-3-4-|
|-----------5-5-5-|-5-5-3-3---5-5-5-|
|-3---------------|-----------------|
|---------3-------|---------3-------|
|-----------------|-4---6-----------|

  G#    A#     Cm    G#    A#     Cm
Cristo vive en mí, Cristo vive en mí
  Fm           Cm    G#    A#     Cm
Cristo vive en mí, Cristo vive en mí
  G#    A#     Cm    G#    A#     Cm
Cristo vive en mí, Cristo vive en mí

   G#         A#        Cm       G#         A#        Cm
Estoy crucificado con Cristo, estoy crucificado con Cristo
   Fm                   Cm       G#   A#     Cm
Estoy crucificado con Cristo, Cristo vive en mí

| G# A# | Cm   | G# A# |

  G#    A#     Cm    G#    A#     Cm
Cristo vive en mí, Cristo vive en mí
  Fm           Cm    G#    A#     Cm
Cristo vive en mí, Cristo vive en mí
  G#    A#     Cm    G#    A#     Cm
Cristo vive en mí, Cristo vive en mí

G#         A#       Cm   G#         A#       Cm
Ya no soy yo quien vivo, ya no soy yo quien vivo
Fm                  Cm      G#   A#     Cm
Ya no soy yo quien vivo, Cristo vive en mí

| G# A# | Cm   | G# A# |

  G#    A#     Cm    G#    A#     Cm
Cristo vive en mí, Cristo vive en mí
  Fm           Cm    G#    A#     Cm
Cristo vive en mí, Cristo vive en mí
  G#    A#     Cm    G#    A#     Cm
Cristo vive en mí, Cristo vive en mí

 



Escriba un Comentario
Escriba su Nombre (Opcional) :

Sitio Web (Opcional) :

Email (Requerido) :

Su Comentario (Requerido):

Comentarios :



 
Compartir esta Pagina