CANCIONERO CATOLICO

ALMA DE CRISTO (TAB)

De: MUSICA CATOLICA


e--0---------0-2-2-3--3-3-3-2-0-0--------------0--------
B----3--3-3-3---------------------3--3-3-3-3-3----3-----
G-------------------------------------------------------
D-------------------------------------------------------
A-------------------------------------------------------
E-------------------------------------------------------

e -0---------0-2-2-3--3-3-3-5-7-7-8--7-7-5-5-3----------
B ---3--3-3-3----------------------3--------------------
G-------------------------------------------------------
D-------------------------------------------------------
A-------------------------------------------------------
E-------------------------------------------------------

e-3-5-7-7-8-7-5-5--7-5-3-0-3-0-3-0--3-5-7-3---7-7-5-3-5-
B-------------------------------------------3-----------
G-------------------------------------------------------
D-------------------------------------------------------
A-------------------------------------------------------
E-------------------------------------------------------

e-3-5-7-7-8-7-5-5--7-5-3-0-3-0-3-0--3-5-7-3---7-7-5-5-3-
B-------------------------------------------3-----------
G-------------------------------------------------------
D-------------------------------------------------------
A-------------------------------------------------------
E-------------------------------------------------------


Escriba un Comentario
Escriba su Nombre (Opcional) :

Sitio Web (Opcional) :

Email (Requerido) :

Su Comentario (Requerido):

Comentarios :



 
Compartir esta Pagina